ISO-10303-21;
HEADER;
/* Generated by software containing ST-Developer
 * from STEP Tools, Inc. (www.steptools.com) 
 */

FILE_DESCRIPTION(
/* description */ (''),
/* implementation_level */ '2;1');

FILE_NAME(
/* name */ 'Side Mount LED v1.step',
/* time_stamp */ '2023-01-06T17:22:44+01:00',
/* author */ (''),
/* organization */ (''),
/* preprocessor_version */ 'ST-DEVELOPER v19.2',
/* originating_system */ 'Autodesk Translation Framework v11.17.0.187',

/* authorisation */ '');

FILE_SCHEMA (('AUTOMOTIVE_DESIGN { 1 0 10303 214 3 1 1 }'));
ENDSEC;

DATA;
#10=MECHANICAL_DESIGN_GEOMETRIC_PRESENTATION_REPRESENTATION('',(#25,#26,
#27,#28,#29,#30),#430);
#11=SHAPE_REPRESENTATION_RELATIONSHIP('SRR','None',#437,#12);
#12=ADVANCED_BREP_SHAPE_REPRESENTATION('',(#13),#429);
#13=MANIFOLD_SOLID_BREP('K\X\F6rper1',#257);
#14=SPHERICAL_SURFACE('',#286,2.5);
#15=FACE_BOUND('',#58,.T.);
#16=FACE_BOUND('',#62,.T.);
#17=FACE_BOUND('',#63,.T.);
#18=CIRCLE('',#282,3.);
#19=CIRCLE('',#283,3.);
#20=CIRCLE('',#285,2.5);
#21=CIRCLE('',#287,2.5);
#22=CIRCLE('',#288,2.5);
#23=CYLINDRICAL_SURFACE('',#281,3.);
#24=CYLINDRICAL_SURFACE('',#289,2.5);
#25=STYLED_ITEM('',(#447),#252);
#26=STYLED_ITEM('',(#447),#253);
#27=STYLED_ITEM('',(#447),#254);
#28=STYLED_ITEM('',(#447),#255);
#29=STYLED_ITEM('',(#447),#256);
#30=STYLED_ITEM('',(#446),#13);
#31=FACE_OUTER_BOUND('',#46,.T.);
#32=FACE_OUTER_BOUND('',#47,.T.);
#33=FACE_OUTER_BOUND('',#48,.T.);
#34=FACE_OUTER_BOUND('',#49,.T.);
#35=FACE_OUTER_BOUND('',#50,.T.);
#36=FACE_OUTER_BOUND('',#51,.T.);
#37=FACE_OUTER_BOUND('',#52,.T.);
#38=FACE_OUTER_BOUND('',#53,.T.);
#39=FACE_OUTER_BOUND('',#54,.T.);
#40=FACE_OUTER_BOUND('',#55,.T.);
#41=FACE_OUTER_BOUND('',#56,.T.);
#42=FACE_OUTER_BOUND('',#57,.T.);
#43=FACE_OUTER_BOUND('',#59,.T.);
#44=FACE_OUTER_BOUND('',#60,.T.);
#45=FACE_OUTER_BOUND('',#61,.T.);
#46=EDGE_LOOP('',(#168,#169,#170,#171));
#47=EDGE_LOOP('',(#172,#173,#174,#175));
#48=EDGE_LOOP('',(#176,#177,#178,#179));
#49=EDGE_LOOP('',(#180,#181,#182,#183));
#50=EDGE_LOOP('',(#184,#185,#186,#187));
#51=EDGE_LOOP('',(#188,#189,#190,#191));
#52=EDGE_LOOP('',(#192,#193,#194,#195));
#53=EDGE_LOOP('',(#196,#197,#198,#199));
#54=EDGE_LOOP('',(#200,#201,#202,#203));
#55=EDGE_LOOP('',(#204,#205,#206,#207));
#56=EDGE_LOOP('',(#208,#209,#210,#211));
#57=EDGE_LOOP('',(#212));
#58=EDGE_LOOP('',(#213));
#59=EDGE_LOOP('',(#214,#215,#216));
#60=EDGE_LOOP('',(#217,#218,#219,#220));
#61=EDGE_LOOP('',(#221));
#62=EDGE_LOOP('',(#222,#223,#224,#225));
#63=EDGE_LOOP('',(#226,#227,#228,#229));
#64=LINE('',#363,#90);
#65=LINE('',#365,#91);
#66=LINE('',#367,#92);
#67=LINE('',#368,#93);
#68=LINE('',#371,#94);
#69=LINE('',#373,#95);
#70=LINE('',#374,#96);
#71=LINE('',#377,#97);
#72=LINE('',#379,#98);
#73=LINE('',#380,#99);
#74=LINE('',#382,#100);
#75=LINE('',#383,#101);
#76=LINE('',#388,#102);
#77=LINE('',#390,#103);
#78=LINE('',#392,#104);
#79=LINE('',#393,#105);
#80=LINE('',#396,#106);
#81=LINE('',#398,#107);
#82=LINE('',#399,#108);
#83=LINE('',#402,#109);
#84=LINE('',#404,#110);
#85=LINE('',#405,#111);
#86=LINE('',#407,#112);
#87=LINE('',#408,#113);
#88=LINE('',#414,#114);
#89=LINE('',#425,#115);
#90=VECTOR('',#295,10.);
#91=VECTOR('',#296,10.);
#92=VECTOR('',#297,10.);
#93=VECTOR('',#298,10.);
#94=VECTOR('',#301,10.);
#95=VECTOR('',#302,10.);
#96=VECTOR('',#303,10.);
#97=VECTOR('',#306,10.);
#98=VECTOR('',#307,10.);
#99=VECTOR('',#308,10.);
#100=VECTOR('',#311,10.);
#101=VECTOR('',#312,10.);
#102=VECTOR('',#317,10.);
#103=VECTOR('',#318,10.);
#104=VECTOR('',#319,10.);
#105=VECTOR('',#320,10.);
#106=VECTOR('',#323,10.);
#107=VECTOR('',#324,10.);
#108=VECTOR('',#325,10.);
#109=VECTOR('',#328,10.);
#110=VECTOR('',#329,10.);
#111=VECTOR('',#330,10.);
#112=VECTOR('',#333,10.);
#113=VECTOR('',#334,10.);
#114=VECTOR('',#341,2.5);
#115=VECTOR('',#356,2.5);
#116=VERTEX_POINT('',#361);
#117=VERTEX_POINT('',#362);
#118=VERTEX_POINT('',#364);
#119=VERTEX_POINT('',#366);
#120=VERTEX_POINT('',#370);
#121=VERTEX_POINT('',#372);
#122=VERTEX_POINT('',#376);
#123=VERTEX_POINT('',#378);
#124=VERTEX_POINT('',#386);
#125=VERTEX_POINT('',#387);
#126=VERTEX_POINT('',#389);
#127=VERTEX_POINT('',#391);
#128=VERTEX_POINT('',#395);
#129=VERTEX_POINT('',#397);
#130=VERTEX_POINT('',#401);
#131=VERTEX_POINT('',#403);
#132=VERTEX_POINT('',#411);
#133=VERTEX_POINT('',#413);
#134=VERTEX_POINT('',#417);
#135=VERTEX_POINT('',#420);
#136=VERTEX_POINT('',#422);
#137=EDGE_CURVE('',#116,#117,#64,.T.);
#138=EDGE_CURVE('',#116,#118,#65,.T.);
#139=EDGE_CURVE('',#119,#118,#66,.T.);
#140=EDGE_CURVE('',#117,#119,#67,.T.);
#141=EDGE_CURVE('',#117,#120,#68,.T.);
#142=EDGE_CURVE('',#121,#119,#69,.T.);
#143=EDGE_CURVE('',#120,#121,#70,.T.);
#144=EDGE_CURVE('',#120,#122,#71,.T.);
#145=EDGE_CURVE('',#123,#121,#72,.T.);
#146=EDGE_CURVE('',#122,#123,#73,.T.);
#147=EDGE_CURVE('',#122,#116,#74,.T.);
#148=EDGE_CURVE('',#118,#123,#75,.T.);
#149=EDGE_CURVE('',#124,#125,#76,.T.);
#150=EDGE_CURVE('',#124,#126,#77,.T.);
#151=EDGE_CURVE('',#127,#126,#78,.T.);
#152=EDGE_CURVE('',#125,#127,#79,.T.);
#153=EDGE_CURVE('',#125,#128,#80,.T.);
#154=EDGE_CURVE('',#129,#127,#81,.T.);
#155=EDGE_CURVE('',#128,#129,#82,.T.);
#156=EDGE_CURVE('',#128,#130,#83,.T.);
#157=EDGE_CURVE('',#131,#129,#84,.T.);
#158=EDGE_CURVE('',#130,#131,#85,.T.);
#159=EDGE_CURVE('',#130,#124,#86,.T.);
#160=EDGE_CURVE('',#126,#131,#87,.T.);
#161=EDGE_CURVE('',#132,#132,#18,.F.);
#162=EDGE_CURVE('',#132,#133,#88,.T.);
#163=EDGE_CURVE('',#133,#133,#19,.F.);
#164=EDGE_CURVE('',#134,#134,#20,.T.);
#165=EDGE_CURVE('',#135,#135,#21,.T.);
#166=EDGE_CURVE('',#136,#135,#22,.T.);
#167=EDGE_CURVE('',#135,#134,#89,.T.);
#168=ORIENTED_EDGE('',*,*,#137,.F.);
#169=ORIENTED_EDGE('',*,*,#138,.T.);
#170=ORIENTED_EDGE('',*,*,#139,.F.);
#171=ORIENTED_EDGE('',*,*,#140,.F.);
#172=ORIENTED_EDGE('',*,*,#141,.F.);
#173=ORIENTED_EDGE('',*,*,#140,.T.);
#174=ORIENTED_EDGE('',*,*,#142,.F.);
#175=ORIENTED_EDGE('',*,*,#143,.F.);
#176=ORIENTED_EDGE('',*,*,#144,.F.);
#177=ORIENTED_EDGE('',*,*,#143,.T.);
#178=ORIENTED_EDGE('',*,*,#145,.F.);
#179=ORIENTED_EDGE('',*,*,#146,.F.);
#180=ORIENTED_EDGE('',*,*,#147,.F.);
#181=ORIENTED_EDGE('',*,*,#146,.T.);
#182=ORIENTED_EDGE('',*,*,#148,.F.);
#183=ORIENTED_EDGE('',*,*,#138,.F.);
#184=ORIENTED_EDGE('',*,*,#148,.T.);
#185=ORIENTED_EDGE('',*,*,#145,.T.);
#186=ORIENTED_EDGE('',*,*,#142,.T.);
#187=ORIENTED_EDGE('',*,*,#139,.T.);
#188=ORIENTED_EDGE('',*,*,#149,.F.);
#189=ORIENTED_EDGE('',*,*,#150,.T.);
#190=ORIENTED_EDGE('',*,*,#151,.F.);
#191=ORIENTED_EDGE('',*,*,#152,.F.);
#192=ORIENTED_EDGE('',*,*,#153,.F.);
#193=ORIENTED_EDGE('',*,*,#152,.T.);
#194=ORIENTED_EDGE('',*,*,#154,.F.);
#195=ORIENTED_EDGE('',*,*,#155,.F.);
#196=ORIENTED_EDGE('',*,*,#156,.F.);
#197=ORIENTED_EDGE('',*,*,#155,.T.);
#198=ORIENTED_EDGE('',*,*,#157,.F.);
#199=ORIENTED_EDGE('',*,*,#158,.F.);
#200=ORIENTED_EDGE('',*,*,#159,.F.);
#201=ORIENTED_EDGE('',*,*,#158,.T.);
#202=ORIENTED_EDGE('',*,*,#160,.F.);
#203=ORIENTED_EDGE('',*,*,#150,.F.);
#204=ORIENTED_EDGE('',*,*,#160,.T.);
#205=ORIENTED_EDGE('',*,*,#157,.T.);
#206=ORIENTED_EDGE('',*,*,#154,.T.);
#207=ORIENTED_EDGE('',*,*,#151,.T.);
#208=ORIENTED_EDGE('',*,*,#161,.F.);
#209=ORIENTED_EDGE('',*,*,#162,.T.);
#210=ORIENTED_EDGE('',*,*,#163,.T.);
#211=ORIENTED_EDGE('',*,*,#162,.F.);
#212=ORIENTED_EDGE('',*,*,#161,.T.);
#213=ORIENTED_EDGE('',*,*,#164,.F.);
#214=ORIENTED_EDGE('',*,*,#165,.T.);
#215=ORIENTED_EDGE('',*,*,#166,.F.);
#216=ORIENTED_EDGE('',*,*,#166,.T.);
#217=ORIENTED_EDGE('',*,*,#165,.F.);
#218=ORIENTED_EDGE('',*,*,#167,.T.);
#219=ORIENTED_EDGE('',*,*,#164,.T.);
#220=ORIENTED_EDGE('',*,*,#167,.F.);
#221=ORIENTED_EDGE('',*,*,#163,.F.);
#222=ORIENTED_EDGE('',*,*,#137,.T.);
#223=ORIENTED_EDGE('',*,*,#141,.T.);
#224=ORIENTED_EDGE('',*,*,#144,.T.);
#225=ORIENTED_EDGE('',*,*,#147,.T.);
#226=ORIENTED_EDGE('',*,*,#149,.T.);
#227=ORIENTED_EDGE('',*,*,#153,.T.);
#228=ORIENTED_EDGE('',*,*,#156,.T.);
#229=ORIENTED_EDGE('',*,*,#159,.T.);
#230=PLANE('',#271);
#231=PLANE('',#272);
#232=PLANE('',#273);
#233=PLANE('',#274);
#234=PLANE('',#275);
#235=PLANE('',#276);
#236=PLANE('',#277);
#237=PLANE('',#278);
#238=PLANE('',#279);
#239=PLANE('',#280);
#240=PLANE('',#284);
#241=PLANE('',#290);
#242=ADVANCED_FACE('',(#31),#230,.T.);
#243=ADVANCED_FACE('',(#32),#231,.T.);
#244=ADVANCED_FACE('',(#33),#232,.T.);
#245=ADVANCED_FACE('',(#34),#233,.T.);
#246=ADVANCED_FACE('',(#35),#234,.T.);
#247=ADVANCED_FACE('',(#36),#235,.T.);
#248=ADVANCED_FACE('',(#37),#236,.T.);
#249=ADVANCED_FACE('',(#38),#237,.T.);
#250=ADVANCED_FACE('',(#39),#238,.T.);
#251=ADVANCED_FACE('',(#40),#239,.T.);
#252=ADVANCED_FACE('',(#41),#23,.T.);
#253=ADVANCED_FACE('',(#42,#15),#240,.T.);
#254=ADVANCED_FACE('',(#43),#14,.T.);
#255=ADVANCED_FACE('',(#44),#24,.T.);
#256=ADVANCED_FACE('',(#45,#16,#17),#241,.F.);
#257=CLOSED_SHELL('',(#242,#243,#244,#245,#246,#247,#248,#249,#250,#251,
#252,#253,#254,#255,#256));
#258=DERIVED_UNIT_ELEMENT(#260,1.);
#259=DERIVED_UNIT_ELEMENT(#432,-3.);
#260=(
MASS_UNIT()
NAMED_UNIT(*)
SI_UNIT(.KILO.,.GRAM.)
);
#261=DERIVED_UNIT((#258,#259));
#262=MEASURE_REPRESENTATION_ITEM('density measure',
POSITIVE_RATIO_MEASURE(7850.),#261);
#263=PROPERTY_DEFINITION_REPRESENTATION(#268,#265);
#264=PROPERTY_DEFINITION_REPRESENTATION(#269,#266);
#265=REPRESENTATION('material name',(#267),#429);
#266=REPRESENTATION('density',(#262),#429);
#267=DESCRIPTIVE_REPRESENTATION_ITEM('Stahl','Stahl');
#268=PROPERTY_DEFINITION('material property','material name',#439);
#269=PROPERTY_DEFINITION('material property','density of part',#439);
#270=AXIS2_PLACEMENT_3D('placement',#359,#291,#292);
#271=AXIS2_PLACEMENT_3D('',#360,#293,#294);
#272=AXIS2_PLACEMENT_3D('',#369,#299,#300);
#273=AXIS2_PLACEMENT_3D('',#375,#304,#305);
#274=AXIS2_PLACEMENT_3D('',#381,#309,#310);
#275=AXIS2_PLACEMENT_3D('',#384,#313,#314);
#276=AXIS2_PLACEMENT_3D('',#385,#315,#316);
#277=AXIS2_PLACEMENT_3D('',#394,#321,#322);
#278=AXIS2_PLACEMENT_3D('',#400,#326,#327);
#279=AXIS2_PLACEMENT_3D('',#406,#331,#332);
#280=AXIS2_PLACEMENT_3D('',#409,#335,#336);
#281=AXIS2_PLACEMENT_3D('',#410,#337,#338);
#282=AXIS2_PLACEMENT_3D('',#412,#339,#340);
#283=AXIS2_PLACEMENT_3D('',#415,#342,#343);
#284=AXIS2_PLACEMENT_3D('',#416,#344,#345);
#285=AXIS2_PLACEMENT_3D('',#418,#346,#347);
#286=AXIS2_PLACEMENT_3D('',#419,#348,#349);
#287=AXIS2_PLACEMENT_3D('',#421,#350,#351);
#288=AXIS2_PLACEMENT_3D('',#423,#352,#353);
#289=AXIS2_PLACEMENT_3D('',#424,#354,#355);
#290=AXIS2_PLACEMENT_3D('',#426,#357,#358);
#291=DIRECTION('axis',(0.,0.,1.));
#292=DIRECTION('refdir',(1.,0.,0.));
#293=DIRECTION('center_axis',(0.,1.,0.));
#294=DIRECTION('ref_axis',(1.,0.,0.));
#295=DIRECTION('',(-1.,0.,0.));
#296=DIRECTION('',(0.,0.,-1.));
#297=DIRECTION('',(1.,0.,0.));
#298=DIRECTION('',(0.,0.,-1.));
#299=DIRECTION('center_axis',(-1.,0.,0.));
#300=DIRECTION('ref_axis',(0.,1.,0.));
#301=DIRECTION('',(0.,-1.,0.));
#302=DIRECTION('',(0.,1.,0.));
#303=DIRECTION('',(0.,0.,-1.));
#304=DIRECTION('center_axis',(2.77555756156289E-16,-1.,0.));
#305=DIRECTION('ref_axis',(-1.,-2.77555756156289E-16,0.));
#306=DIRECTION('',(1.,2.77555756156289E-16,0.));
#307=DIRECTION('',(-1.,-2.77555756156289E-16,0.));
#308=DIRECTION('',(0.,0.,-1.));
#309=DIRECTION('center_axis',(1.,-5.55111512312578E-16,0.));
#310=DIRECTION('ref_axis',(-5.55111512312578E-16,-1.,0.));
#311=DIRECTION('',(5.55111512312578E-16,1.,0.));
#312=DIRECTION('',(-5.55111512312578E-16,-1.,0.));
#313=DIRECTION('center_axis',(0.,0.,-1.));
#314=DIRECTION('ref_axis',(-1.,0.,0.));
#315=DIRECTION('center_axis',(-6.93889390390723E-17,1.,0.));
#316=DIRECTION('ref_axis',(1.,6.93889390390723E-17,0.));
#317=DIRECTION('',(-1.,-6.93889390390723E-17,0.));
#318=DIRECTION('',(0.,0.,-1.));
#319=DIRECTION('',(1.,6.93889390390723E-17,0.));
#320=DIRECTION('',(0.,0.,-1.));
#321=DIRECTION('center_axis',(-1.,0.,0.));
#322=DIRECTION('ref_axis',(0.,1.,0.));
#323=DIRECTION('',(0.,-1.,0.));
#324=DIRECTION('',(0.,1.,0.));
#325=DIRECTION('',(0.,0.,-1.));
#326=DIRECTION('center_axis',(0.,-1.,0.));
#327=DIRECTION('ref_axis',(-1.,0.,0.));
#328=DIRECTION('',(1.,0.,0.));
#329=DIRECTION('',(-1.,0.,0.));
#330=DIRECTION('',(0.,0.,-1.));
#331=DIRECTION('center_axis',(1.,0.,0.));
#332=DIRECTION('ref_axis',(0.,-1.,0.));
#333=DIRECTION('',(0.,1.,0.));
#334=DIRECTION('',(0.,-1.,0.));
#335=DIRECTION('center_axis',(0.,0.,-1.));
#336=DIRECTION('ref_axis',(-1.,0.,0.));
#337=DIRECTION('center_axis',(0.,0.,1.));
#338=DIRECTION('ref_axis',(1.,0.,0.));
#339=DIRECTION('center_axis',(0.,0.,-1.));
#340=DIRECTION('ref_axis',(1.,0.,0.));
#341=DIRECTION('',(0.,0.,-1.));
#342=DIRECTION('center_axis',(0.,0.,-1.));
#343=DIRECTION('ref_axis',(1.,0.,0.));
#344=DIRECTION('center_axis',(0.,0.,1.));
#345=DIRECTION('ref_axis',(1.,0.,0.));
#346=DIRECTION('center_axis',(0.,0.,1.));
#347=DIRECTION('ref_axis',(1.,0.,0.));
#348=DIRECTION('center_axis',(6.12323399573677E-17,0.,1.));
#349=DIRECTION('ref_axis',(1.,0.,0.));
#350=DIRECTION('center_axis',(0.,0.,1.));
#351=DIRECTION('ref_axis',(1.,0.,0.));
#352=DIRECTION('center_axis',(1.22464679914735E-16,-1.,0.));
#353=DIRECTION('ref_axis',(-1.,-1.22464679914735E-16,0.));
#354=DIRECTION('center_axis',(0.,0.,1.));
#355=DIRECTION('ref_axis',(1.,0.,0.));
#356=DIRECTION('',(0.,0.,-1.));
#357=DIRECTION('center_axis',(0.,0.,1.));
#358=DIRECTION('ref_axis',(1.,0.,0.));
#359=CARTESIAN_POINT('',(0.,0.,0.));
#360=CARTESIAN_POINT('Origin',(1.02,0.25,0.));
#361=CARTESIAN_POINT('',(1.52,0.25,0.));
#362=CARTESIAN_POINT('',(1.02,0.25,0.));
#363=CARTESIAN_POINT('',(0.51,0.25,0.));
#364=CARTESIAN_POINT('',(1.52,0.25,-5.));
#365=CARTESIAN_POINT('',(1.52,0.25,0.));
#366=CARTESIAN_POINT('',(1.02,0.25,-5.));
#367=CARTESIAN_POINT('',(1.02,0.25,-5.));
#368=CARTESIAN_POINT('',(1.02,0.25,0.));
#369=CARTESIAN_POINT('Origin',(1.02,-0.25,0.));
#370=CARTESIAN_POINT('',(1.02,-0.25,0.));
#371=CARTESIAN_POINT('',(1.02,-0.125,0.));
#372=CARTESIAN_POINT('',(1.02,-0.25,-5.));
#373=CARTESIAN_POINT('',(1.02,-0.25,-5.));
#374=CARTESIAN_POINT('',(1.02,-0.25,0.));
#375=CARTESIAN_POINT('Origin',(1.52,-0.25,0.));
#376=CARTESIAN_POINT('',(1.52,-0.25,0.));
#377=CARTESIAN_POINT('',(0.76,-0.25,0.));
#378=CARTESIAN_POINT('',(1.52,-0.25,-5.));
#379=CARTESIAN_POINT('',(1.52,-0.25,-5.));
#380=CARTESIAN_POINT('',(1.52,-0.25,0.));
#381=CARTESIAN_POINT('Origin',(1.52,0.25,0.));
#382=CARTESIAN_POINT('',(1.52,0.125,0.));
#383=CARTESIAN_POINT('',(1.52,0.25,-5.));
#384=CARTESIAN_POINT('Origin',(1.27,2.08166817117217E-16,-5.));
#385=CARTESIAN_POINT('Origin',(-1.52,0.25,0.));
#386=CARTESIAN_POINT('',(-1.02,0.25,0.));
#387=CARTESIAN_POINT('',(-1.52,0.25,0.));
#388=CARTESIAN_POINT('',(-0.76,0.25,0.));
#389=CARTESIAN_POINT('',(-1.02,0.25,-5.));
#390=CARTESIAN_POINT('',(-1.02,0.25,0.));
#391=CARTESIAN_POINT('',(-1.52,0.25,-5.));
#392=CARTESIAN_POINT('',(-1.52,0.25,-5.));
#393=CARTESIAN_POINT('',(-1.52,0.25,0.));
#394=CARTESIAN_POINT('Origin',(-1.52,-0.25,0.));
#395=CARTESIAN_POINT('',(-1.52,-0.25,0.));
#396=CARTESIAN_POINT('',(-1.52,-0.125,0.));
#397=CARTESIAN_POINT('',(-1.52,-0.25,-5.));
#398=CARTESIAN_POINT('',(-1.52,-0.25,-5.));
#399=CARTESIAN_POINT('',(-1.52,-0.25,0.));
#400=CARTESIAN_POINT('Origin',(-1.02,-0.25,0.));
#401=CARTESIAN_POINT('',(-1.02,-0.25,0.));
#402=CARTESIAN_POINT('',(-0.51,-0.25,0.));
#403=CARTESIAN_POINT('',(-1.02,-0.25,-5.));
#404=CARTESIAN_POINT('',(-1.02,-0.25,-5.));
#405=CARTESIAN_POINT('',(-1.02,-0.25,0.));
#406=CARTESIAN_POINT('Origin',(-1.02,0.25,0.));
#407=CARTESIAN_POINT('',(-1.02,0.125,0.));
#408=CARTESIAN_POINT('',(-1.02,0.25,-5.));
#409=CARTESIAN_POINT('Origin',(-1.27,-2.42861286636753E-16,-5.));
#410=CARTESIAN_POINT('Origin',(0.,0.,0.));
#411=CARTESIAN_POINT('',(-3.,3.67394039744206E-16,1.));
#412=CARTESIAN_POINT('Origin',(0.,0.,1.));
#413=CARTESIAN_POINT('',(-3.,3.67394039744206E-16,0.));
#414=CARTESIAN_POINT('',(-3.,-3.67394039744206E-16,0.));
#415=CARTESIAN_POINT('Origin',(0.,0.,0.));
#416=CARTESIAN_POINT('Origin',(0.,0.,1.));
#417=CARTESIAN_POINT('',(-2.5,-3.06161699786838E-16,1.));
#418=CARTESIAN_POINT('Origin',(0.,0.,1.));
#419=CARTESIAN_POINT('Origin',(0.,0.,6.5));
#420=CARTESIAN_POINT('',(-2.5,-3.06161699786838E-16,6.5));
#421=CARTESIAN_POINT('Origin',(0.,0.,6.5));
#422=CARTESIAN_POINT('',(-1.53080849893419E-16,-1.87469972832732E-32,9.));
#423=CARTESIAN_POINT('Origin',(0.,0.,6.5));
#424=CARTESIAN_POINT('Origin',(0.,0.,0.));
#425=CARTESIAN_POINT('',(-2.5,-3.06161699786838E-16,0.));
#426=CARTESIAN_POINT('Origin',(0.,0.,0.));
#427=UNCERTAINTY_MEASURE_WITH_UNIT(LENGTH_MEASURE(0.01),#431,
'DISTANCE_ACCURACY_VALUE',
'Maximum model space distance between geometric entities at asserted c
onnectivities');
#428=UNCERTAINTY_MEASURE_WITH_UNIT(LENGTH_MEASURE(0.01),#431,
'DISTANCE_ACCURACY_VALUE',
'Maximum model space distance between geometric entities at asserted c
onnectivities');
#429=(
GEOMETRIC_REPRESENTATION_CONTEXT(3)
GLOBAL_UNCERTAINTY_ASSIGNED_CONTEXT((#427))
GLOBAL_UNIT_ASSIGNED_CONTEXT((#431,#433,#434))
REPRESENTATION_CONTEXT('','3D')
);
#430=(
GEOMETRIC_REPRESENTATION_CONTEXT(3)
GLOBAL_UNCERTAINTY_ASSIGNED_CONTEXT((#428))
GLOBAL_UNIT_ASSIGNED_CONTEXT((#431,#433,#434))
REPRESENTATION_CONTEXT('','3D')
);
#431=(
LENGTH_UNIT()
NAMED_UNIT(*)
SI_UNIT(.MILLI.,.METRE.)
);
#432=(
LENGTH_UNIT()
NAMED_UNIT(*)
SI_UNIT($,.METRE.)
);
#433=(
NAMED_UNIT(*)
PLANE_ANGLE_UNIT()
SI_UNIT($,.RADIAN.)
);
#434=(
NAMED_UNIT(*)
SI_UNIT($,.STERADIAN.)
SOLID_ANGLE_UNIT()
);
#435=SHAPE_DEFINITION_REPRESENTATION(#436,#437);
#436=PRODUCT_DEFINITION_SHAPE('',$,#439);
#437=SHAPE_REPRESENTATION('',(#270),#429);
#438=PRODUCT_DEFINITION_CONTEXT('part definition',#443,'design');
#439=PRODUCT_DEFINITION('Side Mount LED','Side Mount LED v1',#440,#438);
#440=PRODUCT_DEFINITION_FORMATION('',$,#445);
#441=PRODUCT_RELATED_PRODUCT_CATEGORY('Side Mount LED v1',
'Side Mount LED v1',(#445));
#442=APPLICATION_PROTOCOL_DEFINITION('international standard',
'automotive_design',2009,#443);
#443=APPLICATION_CONTEXT(
'Core Data for Automotive Mechanical Design Process');
#444=PRODUCT_CONTEXT('part definition',#443,'mechanical');
#445=PRODUCT('Side Mount LED','Side Mount LED v1',$,(#444));
#446=PRESENTATION_STYLE_ASSIGNMENT((#448));
#447=PRESENTATION_STYLE_ASSIGNMENT((#449));
#448=SURFACE_STYLE_USAGE(.BOTH.,#450);
#449=SURFACE_STYLE_USAGE(.BOTH.,#451);
#450=SURFACE_SIDE_STYLE('',(#452));
#451=SURFACE_SIDE_STYLE('',(#453));
#452=SURFACE_STYLE_FILL_AREA(#454);
#453=SURFACE_STYLE_FILL_AREA(#455);
#454=FILL_AREA_STYLE('Stahl - satiniert',(#456));
#455=FILL_AREA_STYLE('Acryl (klar)',(#457));
#456=FILL_AREA_STYLE_COLOUR('Stahl - satiniert',#458);
#457=FILL_AREA_STYLE_COLOUR('Acryl (klar)',#459);
#458=COLOUR_RGB('Stahl - satiniert',0.627450980392157,0.627450980392157,
0.627450980392157);
#459=COLOUR_RGB('Acryl (klar)',0.964705882352941,0.964705882352941,0.952941176470588);
ENDSEC;
END-ISO-10303-21;
