ISO-10303-21;
HEADER;
/* Generated by software containing ST-Developer
 * from STEP Tools, Inc. (www.steptools.com) 
 */

FILE_DESCRIPTION(
/* description */ (''),
/* implementation_level */ '2;1');

FILE_NAME(
/* name */ 'Walsin RFANT5220110A2T v1.step',
/* time_stamp */ '2023-01-20T22:36:29+01:00',
/* author */ (''),
/* organization */ (''),
/* preprocessor_version */ 'ST-DEVELOPER v19.2',
/* originating_system */ 'Autodesk Translation Framework v11.17.0.187',

/* authorisation */ '');

FILE_SCHEMA (('AUTOMOTIVE_DESIGN { 1 0 10303 214 3 1 1 }'));
ENDSEC;

DATA;
#10=MECHANICAL_DESIGN_GEOMETRIC_PRESENTATION_REPRESENTATION('',(#232,#233,
#234,#235,#236,#237),#413);
#11=SHAPE_REPRESENTATION_RELATIONSHIP('SRR','None',#420,#12);
#12=ADVANCED_BREP_SHAPE_REPRESENTATION('',(#13),#412);
#13=MANIFOLD_SOLID_BREP('K\X\F6rper1',#253);
#14=FACE_OUTER_BOUND('',#29,.T.);
#15=FACE_OUTER_BOUND('',#30,.T.);
#16=FACE_OUTER_BOUND('',#31,.T.);
#17=FACE_OUTER_BOUND('',#32,.T.);
#18=FACE_OUTER_BOUND('',#33,.T.);
#19=FACE_OUTER_BOUND('',#34,.T.);
#20=FACE_OUTER_BOUND('',#35,.T.);
#21=FACE_OUTER_BOUND('',#36,.T.);
#22=FACE_OUTER_BOUND('',#37,.T.);
#23=FACE_OUTER_BOUND('',#38,.T.);
#24=FACE_OUTER_BOUND('',#39,.T.);
#25=FACE_OUTER_BOUND('',#40,.T.);
#26=FACE_OUTER_BOUND('',#41,.T.);
#27=FACE_OUTER_BOUND('',#42,.T.);
#28=FACE_OUTER_BOUND('',#43,.T.);
#29=EDGE_LOOP('',(#155,#156,#157,#158));
#30=EDGE_LOOP('',(#159,#160,#161,#162));
#31=EDGE_LOOP('',(#163,#164,#165,#166));
#32=EDGE_LOOP('',(#167,#168,#169,#170));
#33=EDGE_LOOP('',(#171,#172,#173,#174,#175));
#34=EDGE_LOOP('',(#176,#177,#178,#179));
#35=EDGE_LOOP('',(#180,#181,#182,#183));
#36=EDGE_LOOP('',(#184,#185,#186,#187));
#37=EDGE_LOOP('',(#188,#189,#190,#191));
#38=EDGE_LOOP('',(#192,#193,#194,#195));
#39=EDGE_LOOP('',(#196,#197,#198,#199));
#40=EDGE_LOOP('',(#200,#201,#202,#203,#204));
#41=EDGE_LOOP('',(#205,#206,#207,#208));
#42=EDGE_LOOP('',(#209,#210,#211,#212));
#43=EDGE_LOOP('',(#213,#214,#215,#216));
#44=LINE('',#349,#75);
#45=LINE('',#351,#76);
#46=LINE('',#353,#77);
#47=LINE('',#354,#78);
#48=LINE('',#357,#79);
#49=LINE('',#359,#80);
#50=LINE('',#360,#81);
#51=LINE('',#363,#82);
#52=LINE('',#365,#83);
#53=LINE('',#366,#84);
#54=LINE('',#369,#85);
#55=LINE('',#371,#86);
#56=LINE('',#372,#87);
#57=LINE('',#375,#88);
#58=LINE('',#376,#89);
#59=LINE('',#379,#90);
#60=LINE('',#381,#91);
#61=LINE('',#382,#92);
#62=LINE('',#385,#93);
#63=LINE('',#387,#94);
#64=LINE('',#389,#95);
#65=LINE('',#390,#96);
#66=LINE('',#392,#97);
#67=LINE('',#393,#98);
#68=LINE('',#395,#99);
#69=LINE('',#397,#100);
#70=LINE('',#398,#101);
#71=LINE('',#401,#102);
#72=LINE('',#402,#103);
#73=LINE('',#405,#104);
#74=LINE('',#407,#105);
#75=VECTOR('',#286,10.);
#76=VECTOR('',#287,10.);
#77=VECTOR('',#288,10.);
#78=VECTOR('',#289,10.);
#79=VECTOR('',#292,10.);
#80=VECTOR('',#293,10.);
#81=VECTOR('',#294,10.);
#82=VECTOR('',#297,10.);
#83=VECTOR('',#298,10.);
#84=VECTOR('',#299,10.);
#85=VECTOR('',#302,10.);
#86=VECTOR('',#303,10.);
#87=VECTOR('',#304,10.);
#88=VECTOR('',#307,10.);
#89=VECTOR('',#308,10.);
#90=VECTOR('',#311,10.);
#91=VECTOR('',#312,10.);
#92=VECTOR('',#313,10.);
#93=VECTOR('',#316,10.);
#94=VECTOR('',#317,10.);
#95=VECTOR('',#318,10.);
#96=VECTOR('',#319,10.);
#97=VECTOR('',#322,10.);
#98=VECTOR('',#323,10.);
#99=VECTOR('',#326,10.);
#100=VECTOR('',#327,10.);
#101=VECTOR('',#328,10.);
#102=VECTOR('',#331,10.);
#103=VECTOR('',#332,10.);
#104=VECTOR('',#337,10.);
#105=VECTOR('',#340,10.);
#106=VERTEX_POINT('',#347);
#107=VERTEX_POINT('',#348);
#108=VERTEX_POINT('',#350);
#109=VERTEX_POINT('',#352);
#110=VERTEX_POINT('',#356);
#111=VERTEX_POINT('',#358);
#112=VERTEX_POINT('',#362);
#113=VERTEX_POINT('',#364);
#114=VERTEX_POINT('',#368);
#115=VERTEX_POINT('',#370);
#116=VERTEX_POINT('',#374);
#117=VERTEX_POINT('',#378);
#118=VERTEX_POINT('',#380);
#119=VERTEX_POINT('',#384);
#120=VERTEX_POINT('',#386);
#121=VERTEX_POINT('',#388);
#122=VERTEX_POINT('',#396);
#123=VERTEX_POINT('',#400);
#124=EDGE_CURVE('',#106,#107,#44,.T.);
#125=EDGE_CURVE('',#106,#108,#45,.T.);
#126=EDGE_CURVE('',#108,#109,#46,.T.);
#127=EDGE_CURVE('',#109,#107,#47,.T.);
#128=EDGE_CURVE('',#108,#110,#48,.T.);
#129=EDGE_CURVE('',#110,#111,#49,.T.);
#130=EDGE_CURVE('',#111,#109,#50,.T.);
#131=EDGE_CURVE('',#107,#112,#51,.T.);
#132=EDGE_CURVE('',#112,#113,#52,.T.);
#133=EDGE_CURVE('',#113,#106,#53,.T.);
#134=EDGE_CURVE('',#109,#114,#54,.T.);
#135=EDGE_CURVE('',#115,#111,#55,.T.);
#136=EDGE_CURVE('',#114,#115,#56,.T.);
#137=EDGE_CURVE('',#116,#112,#57,.T.);
#138=EDGE_CURVE('',#116,#114,#58,.T.);
#139=EDGE_CURVE('',#114,#117,#59,.T.);
#140=EDGE_CURVE('',#115,#118,#60,.T.);
#141=EDGE_CURVE('',#118,#117,#61,.T.);
#142=EDGE_CURVE('',#119,#116,#62,.T.);
#143=EDGE_CURVE('',#119,#120,#63,.T.);
#144=EDGE_CURVE('',#120,#121,#64,.T.);
#145=EDGE_CURVE('',#121,#116,#65,.T.);
#146=EDGE_CURVE('',#117,#108,#66,.T.);
#147=EDGE_CURVE('',#118,#110,#67,.T.);
#148=EDGE_CURVE('',#113,#119,#68,.T.);
#149=EDGE_CURVE('',#122,#113,#69,.T.);
#150=EDGE_CURVE('',#120,#122,#70,.T.);
#151=EDGE_CURVE('',#121,#123,#71,.T.);
#152=EDGE_CURVE('',#112,#123,#72,.T.);
#153=EDGE_CURVE('',#117,#119,#73,.T.);
#154=EDGE_CURVE('',#123,#122,#74,.T.);
#155=ORIENTED_EDGE('',*,*,#124,.F.);
#156=ORIENTED_EDGE('',*,*,#125,.T.);
#157=ORIENTED_EDGE('',*,*,#126,.T.);
#158=ORIENTED_EDGE('',*,*,#127,.T.);
#159=ORIENTED_EDGE('',*,*,#126,.F.);
#160=ORIENTED_EDGE('',*,*,#128,.T.);
#161=ORIENTED_EDGE('',*,*,#129,.T.);
#162=ORIENTED_EDGE('',*,*,#130,.T.);
#163=ORIENTED_EDGE('',*,*,#124,.T.);
#164=ORIENTED_EDGE('',*,*,#131,.T.);
#165=ORIENTED_EDGE('',*,*,#132,.T.);
#166=ORIENTED_EDGE('',*,*,#133,.T.);
#167=ORIENTED_EDGE('',*,*,#134,.F.);
#168=ORIENTED_EDGE('',*,*,#130,.F.);
#169=ORIENTED_EDGE('',*,*,#135,.F.);
#170=ORIENTED_EDGE('',*,*,#136,.F.);
#171=ORIENTED_EDGE('',*,*,#137,.T.);
#172=ORIENTED_EDGE('',*,*,#131,.F.);
#173=ORIENTED_EDGE('',*,*,#127,.F.);
#174=ORIENTED_EDGE('',*,*,#134,.T.);
#175=ORIENTED_EDGE('',*,*,#138,.F.);
#176=ORIENTED_EDGE('',*,*,#139,.F.);
#177=ORIENTED_EDGE('',*,*,#136,.T.);
#178=ORIENTED_EDGE('',*,*,#140,.T.);
#179=ORIENTED_EDGE('',*,*,#141,.T.);
#180=ORIENTED_EDGE('',*,*,#142,.F.);
#181=ORIENTED_EDGE('',*,*,#143,.T.);
#182=ORIENTED_EDGE('',*,*,#144,.T.);
#183=ORIENTED_EDGE('',*,*,#145,.T.);
#184=ORIENTED_EDGE('',*,*,#146,.F.);
#185=ORIENTED_EDGE('',*,*,#141,.F.);
#186=ORIENTED_EDGE('',*,*,#147,.T.);
#187=ORIENTED_EDGE('',*,*,#128,.F.);
#188=ORIENTED_EDGE('',*,*,#148,.F.);
#189=ORIENTED_EDGE('',*,*,#149,.F.);
#190=ORIENTED_EDGE('',*,*,#150,.F.);
#191=ORIENTED_EDGE('',*,*,#143,.F.);
#192=ORIENTED_EDGE('',*,*,#137,.F.);
#193=ORIENTED_EDGE('',*,*,#145,.F.);
#194=ORIENTED_EDGE('',*,*,#151,.T.);
#195=ORIENTED_EDGE('',*,*,#152,.F.);
#196=ORIENTED_EDGE('',*,*,#140,.F.);
#197=ORIENTED_EDGE('',*,*,#135,.T.);
#198=ORIENTED_EDGE('',*,*,#129,.F.);
#199=ORIENTED_EDGE('',*,*,#147,.F.);
#200=ORIENTED_EDGE('',*,*,#148,.T.);
#201=ORIENTED_EDGE('',*,*,#153,.F.);
#202=ORIENTED_EDGE('',*,*,#146,.T.);
#203=ORIENTED_EDGE('',*,*,#125,.F.);
#204=ORIENTED_EDGE('',*,*,#133,.F.);
#205=ORIENTED_EDGE('',*,*,#144,.F.);
#206=ORIENTED_EDGE('',*,*,#150,.T.);
#207=ORIENTED_EDGE('',*,*,#154,.F.);
#208=ORIENTED_EDGE('',*,*,#151,.F.);
#209=ORIENTED_EDGE('',*,*,#132,.F.);
#210=ORIENTED_EDGE('',*,*,#152,.T.);
#211=ORIENTED_EDGE('',*,*,#154,.T.);
#212=ORIENTED_EDGE('',*,*,#149,.T.);
#213=ORIENTED_EDGE('',*,*,#142,.T.);
#214=ORIENTED_EDGE('',*,*,#138,.T.);
#215=ORIENTED_EDGE('',*,*,#139,.T.);
#216=ORIENTED_EDGE('',*,*,#153,.T.);
#217=PLANE('',#267);
#218=PLANE('',#268);
#219=PLANE('',#269);
#220=PLANE('',#270);
#221=PLANE('',#271);
#222=PLANE('',#272);
#223=PLANE('',#273);
#224=PLANE('',#274);
#225=PLANE('',#275);
#226=PLANE('',#276);
#227=PLANE('',#277);
#228=PLANE('',#278);
#229=PLANE('',#279);
#230=PLANE('',#280);
#231=PLANE('',#281);
#232=STYLED_ITEM('',(#430),#238);
#233=STYLED_ITEM('',(#431),#240);
#234=STYLED_ITEM('',(#431),#242);
#235=STYLED_ITEM('',(#431),#249);
#236=STYLED_ITEM('',(#431),#252);
#237=STYLED_ITEM('',(#429),#13);
#238=ADVANCED_FACE('',(#14),#217,.T.);
#239=ADVANCED_FACE('',(#15),#218,.T.);
#240=ADVANCED_FACE('',(#16),#219,.T.);
#241=ADVANCED_FACE('',(#17),#220,.T.);
#242=ADVANCED_FACE('',(#18),#221,.T.);
#243=ADVANCED_FACE('',(#19),#222,.F.);
#244=ADVANCED_FACE('',(#20),#223,.F.);
#245=ADVANCED_FACE('',(#21),#224,.T.);
#246=ADVANCED_FACE('',(#22),#225,.T.);
#247=ADVANCED_FACE('',(#23),#226,.T.);
#248=ADVANCED_FACE('',(#24),#227,.T.);
#249=ADVANCED_FACE('',(#25),#228,.T.);
#250=ADVANCED_FACE('',(#26),#229,.T.);
#251=ADVANCED_FACE('',(#27),#230,.T.);
#252=ADVANCED_FACE('',(#28),#231,.F.);
#253=CLOSED_SHELL('',(#238,#239,#240,#241,#242,#243,#244,#245,#246,#247,
#248,#249,#250,#251,#252));
#254=DERIVED_UNIT_ELEMENT(#256,1.);
#255=DERIVED_UNIT_ELEMENT(#415,-3.);
#256=(
MASS_UNIT()
NAMED_UNIT(*)
SI_UNIT(.KILO.,.GRAM.)
);
#257=DERIVED_UNIT((#254,#255));
#258=MEASURE_REPRESENTATION_ITEM('density measure',
POSITIVE_RATIO_MEASURE(7850.),#257);
#259=PROPERTY_DEFINITION_REPRESENTATION(#264,#261);
#260=PROPERTY_DEFINITION_REPRESENTATION(#265,#262);
#261=REPRESENTATION('material name',(#263),#412);
#262=REPRESENTATION('density',(#258),#412);
#263=DESCRIPTIVE_REPRESENTATION_ITEM('Stahl','Stahl');
#264=PROPERTY_DEFINITION('material property','material name',#422);
#265=PROPERTY_DEFINITION('material property','density of part',#422);
#266=AXIS2_PLACEMENT_3D('placement',#345,#282,#283);
#267=AXIS2_PLACEMENT_3D('',#346,#284,#285);
#268=AXIS2_PLACEMENT_3D('',#355,#290,#291);
#269=AXIS2_PLACEMENT_3D('',#361,#295,#296);
#270=AXIS2_PLACEMENT_3D('',#367,#300,#301);
#271=AXIS2_PLACEMENT_3D('',#373,#305,#306);
#272=AXIS2_PLACEMENT_3D('',#377,#309,#310);
#273=AXIS2_PLACEMENT_3D('',#383,#314,#315);
#274=AXIS2_PLACEMENT_3D('',#391,#320,#321);
#275=AXIS2_PLACEMENT_3D('',#394,#324,#325);
#276=AXIS2_PLACEMENT_3D('',#399,#329,#330);
#277=AXIS2_PLACEMENT_3D('',#403,#333,#334);
#278=AXIS2_PLACEMENT_3D('',#404,#335,#336);
#279=AXIS2_PLACEMENT_3D('',#406,#338,#339);
#280=AXIS2_PLACEMENT_3D('',#408,#341,#342);
#281=AXIS2_PLACEMENT_3D('',#409,#343,#344);
#282=DIRECTION('axis',(0.,0.,1.));
#283=DIRECTION('refdir',(1.,0.,0.));
#284=DIRECTION('center_axis',(0.,1.,0.));
#285=DIRECTION('ref_axis',(0.,0.,1.));
#286=DIRECTION('',(1.,0.,1.38777878078145E-16));
#287=DIRECTION('',(0.,0.,1.));
#288=DIRECTION('',(1.,0.,4.16333643540216E-16));
#289=DIRECTION('',(0.,0.,-1.));
#290=DIRECTION('center_axis',(0.,1.,0.));
#291=DIRECTION('ref_axis',(0.,0.,1.));
#292=DIRECTION('',(0.,0.,1.));
#293=DIRECTION('',(1.,0.,0.));
#294=DIRECTION('',(0.,0.,-1.));
#295=DIRECTION('center_axis',(0.,1.,0.));
#296=DIRECTION('ref_axis',(0.,0.,1.));
#297=DIRECTION('',(0.,0.,-1.));
#298=DIRECTION('',(-1.,0.,0.));
#299=DIRECTION('',(0.,0.,1.));
#300=DIRECTION('center_axis',(1.,0.,0.));
#301=DIRECTION('ref_axis',(0.,0.,-1.));
#302=DIRECTION('',(0.,-1.,0.));
#303=DIRECTION('',(0.,1.,0.));
#304=DIRECTION('',(0.,0.,1.));
#305=DIRECTION('center_axis',(1.,0.,0.));
#306=DIRECTION('ref_axis',(0.,0.,-1.));
#307=DIRECTION('',(0.,1.,0.));
#308=DIRECTION('',(0.,0.,1.));
#309=DIRECTION('center_axis',(0.,1.,0.));
#310=DIRECTION('ref_axis',(1.,0.,0.));
#311=DIRECTION('',(-1.,0.,-4.16333643540216E-16));
#312=DIRECTION('',(-1.,0.,0.));
#313=DIRECTION('',(0.,0.,-1.));
#314=DIRECTION('center_axis',(0.,1.,0.));
#315=DIRECTION('ref_axis',(1.,0.,0.));
#316=DIRECTION('',(1.,0.,0.));
#317=DIRECTION('',(0.,0.,-1.));
#318=DIRECTION('',(1.,0.,2.77555756156289E-16));
#319=DIRECTION('',(0.,0.,1.));
#320=DIRECTION('center_axis',(-1.,0.,0.));
#321=DIRECTION('ref_axis',(0.,0.,1.));
#322=DIRECTION('',(0.,1.,0.));
#323=DIRECTION('',(0.,1.,0.));
#324=DIRECTION('center_axis',(-1.,0.,0.));
#325=DIRECTION('ref_axis',(0.,0.,1.));
#326=DIRECTION('',(0.,-1.,0.));
#327=DIRECTION('',(0.,0.,1.));
#328=DIRECTION('',(0.,1.,0.));
#329=DIRECTION('center_axis',(1.,0.,0.));
#330=DIRECTION('ref_axis',(0.,0.,-1.));
#331=DIRECTION('',(0.,1.,0.));
#332=DIRECTION('',(0.,0.,-1.));
#333=DIRECTION('center_axis',(0.,0.,1.));
#334=DIRECTION('ref_axis',(1.,0.,0.));
#335=DIRECTION('center_axis',(-1.,0.,0.));
#336=DIRECTION('ref_axis',(0.,0.,1.));
#337=DIRECTION('',(0.,0.,-1.));
#338=DIRECTION('center_axis',(2.77555756156289E-16,0.,-1.));
#339=DIRECTION('ref_axis',(-1.,0.,-2.77555756156289E-16));
#340=DIRECTION('',(-1.,0.,-2.77555756156289E-16));
#341=DIRECTION('center_axis',(0.,1.,0.));
#342=DIRECTION('ref_axis',(0.,0.,1.));
#343=DIRECTION('center_axis',(0.,1.,0.));
#344=DIRECTION('ref_axis',(1.,0.,0.));
#345=CARTESIAN_POINT('',(0.,0.,0.));
#346=CARTESIAN_POINT('Origin',(1.38777878078145E-16,1.15,5.55111512312578E-16));
#347=CARTESIAN_POINT('',(-1.,1.15,0.800000000000001));
#348=CARTESIAN_POINT('',(1.,1.15,0.800000000000001));
#349=CARTESIAN_POINT('',(2.77555756156289E-17,1.15,0.800000000000001));
#350=CARTESIAN_POINT('',(-1.,1.15,2.2));
#351=CARTESIAN_POINT('',(-1.,1.15,2.6));
#352=CARTESIAN_POINT('',(1.,1.15,2.2));
#353=CARTESIAN_POINT('',(0.5,1.15,2.2));
#354=CARTESIAN_POINT('',(1.,1.15,-2.6));
#355=CARTESIAN_POINT('Origin',(1.38777878078145E-16,1.15,5.55111512312578E-16));
#356=CARTESIAN_POINT('',(-1.,1.15,2.6));
#357=CARTESIAN_POINT('',(-1.,1.15,2.6));
#358=CARTESIAN_POINT('',(1.,1.15,2.6));
#359=CARTESIAN_POINT('',(1.,1.15,2.6));
#360=CARTESIAN_POINT('',(1.,1.15,-2.6));
#361=CARTESIAN_POINT('Origin',(1.38777878078145E-16,1.15,5.55111512312578E-16));
#362=CARTESIAN_POINT('',(1.,1.15,-2.2));
#363=CARTESIAN_POINT('',(1.,1.15,-2.6));
#364=CARTESIAN_POINT('',(-1.,1.15,-2.2));
#365=CARTESIAN_POINT('',(-0.5,1.15,-2.2));
#366=CARTESIAN_POINT('',(-1.,1.15,2.6));
#367=CARTESIAN_POINT('Origin',(1.,0.,2.6));
#368=CARTESIAN_POINT('',(1.,0.,2.2));
#369=CARTESIAN_POINT('',(1.,0.,2.2));
#370=CARTESIAN_POINT('',(1.,0.,2.6));
#371=CARTESIAN_POINT('',(1.,0.,2.6));
#372=CARTESIAN_POINT('',(1.,0.,-2.6));
#373=CARTESIAN_POINT('Origin',(1.,0.,2.6));
#374=CARTESIAN_POINT('',(1.,0.,-2.2));
#375=CARTESIAN_POINT('',(1.,0.,-2.2));
#376=CARTESIAN_POINT('',(1.,0.,-2.6));
#377=CARTESIAN_POINT('Origin',(1.38777878078145E-16,0.,5.55111512312578E-16));
#378=CARTESIAN_POINT('',(-1.,0.,2.2));
#379=CARTESIAN_POINT('',(0.5,0.,2.2));
#380=CARTESIAN_POINT('',(-1.,0.,2.6));
#381=CARTESIAN_POINT('',(1.,0.,2.6));
#382=CARTESIAN_POINT('',(-1.,0.,2.6));
#383=CARTESIAN_POINT('Origin',(1.38777878078145E-16,0.,5.55111512312578E-16));
#384=CARTESIAN_POINT('',(-1.,0.,-2.2));
#385=CARTESIAN_POINT('',(-0.5,0.,-2.2));
#386=CARTESIAN_POINT('',(-1.,0.,-2.6));
#387=CARTESIAN_POINT('',(-1.,0.,2.6));
#388=CARTESIAN_POINT('',(1.,0.,-2.6));
#389=CARTESIAN_POINT('',(-1.,0.,-2.6));
#390=CARTESIAN_POINT('',(1.,0.,-2.6));
#391=CARTESIAN_POINT('Origin',(-1.,0.,-2.6));
#392=CARTESIAN_POINT('',(-1.,0.,2.2));
#393=CARTESIAN_POINT('',(-1.,0.,2.6));
#394=CARTESIAN_POINT('Origin',(-1.,0.,-2.6));
#395=CARTESIAN_POINT('',(-1.,0.,-2.2));
#396=CARTESIAN_POINT('',(-1.,1.15,-2.6));
#397=CARTESIAN_POINT('',(-1.,1.15,2.6));
#398=CARTESIAN_POINT('',(-1.,0.,-2.6));
#399=CARTESIAN_POINT('Origin',(1.,0.,2.6));
#400=CARTESIAN_POINT('',(1.,1.15,-2.6));
#401=CARTESIAN_POINT('',(1.,0.,-2.6));
#402=CARTESIAN_POINT('',(1.,1.15,-2.6));
#403=CARTESIAN_POINT('Origin',(-1.,0.,2.6));
#404=CARTESIAN_POINT('Origin',(-1.,0.,-2.6));
#405=CARTESIAN_POINT('',(-1.,0.,2.6));
#406=CARTESIAN_POINT('Origin',(1.,0.,-2.6));
#407=CARTESIAN_POINT('',(-1.,1.15,-2.6));
#408=CARTESIAN_POINT('Origin',(1.38777878078145E-16,1.15,5.55111512312578E-16));
#409=CARTESIAN_POINT('Origin',(1.38777878078145E-16,0.,5.55111512312578E-16));
#410=UNCERTAINTY_MEASURE_WITH_UNIT(LENGTH_MEASURE(0.01),#414,
'DISTANCE_ACCURACY_VALUE',
'Maximum model space distance between geometric entities at asserted c
onnectivities');
#411=UNCERTAINTY_MEASURE_WITH_UNIT(LENGTH_MEASURE(0.01),#414,
'DISTANCE_ACCURACY_VALUE',
'Maximum model space distance between geometric entities at asserted c
onnectivities');
#412=(
GEOMETRIC_REPRESENTATION_CONTEXT(3)
GLOBAL_UNCERTAINTY_ASSIGNED_CONTEXT((#410))
GLOBAL_UNIT_ASSIGNED_CONTEXT((#414,#416,#417))
REPRESENTATION_CONTEXT('','3D')
);
#413=(
GEOMETRIC_REPRESENTATION_CONTEXT(3)
GLOBAL_UNCERTAINTY_ASSIGNED_CONTEXT((#411))
GLOBAL_UNIT_ASSIGNED_CONTEXT((#414,#416,#417))
REPRESENTATION_CONTEXT('','3D')
);
#414=(
LENGTH_UNIT()
NAMED_UNIT(*)
SI_UNIT(.MILLI.,.METRE.)
);
#415=(
LENGTH_UNIT()
NAMED_UNIT(*)
SI_UNIT($,.METRE.)
);
#416=(
NAMED_UNIT(*)
PLANE_ANGLE_UNIT()
SI_UNIT($,.RADIAN.)
);
#417=(
NAMED_UNIT(*)
SI_UNIT($,.STERADIAN.)
SOLID_ANGLE_UNIT()
);
#418=SHAPE_DEFINITION_REPRESENTATION(#419,#420);
#419=PRODUCT_DEFINITION_SHAPE('',$,#422);
#420=SHAPE_REPRESENTATION('',(#266),#412);
#421=PRODUCT_DEFINITION_CONTEXT('part definition',#426,'design');
#422=PRODUCT_DEFINITION('Walsin RFANT5220110A2T',
'Walsin RFANT5220110A2T v0',#423,#421);
#423=PRODUCT_DEFINITION_FORMATION('',$,#428);
#424=PRODUCT_RELATED_PRODUCT_CATEGORY('Walsin RFANT5220110A2T v0',
'Walsin RFANT5220110A2T v0',(#428));
#425=APPLICATION_PROTOCOL_DEFINITION('international standard',
'automotive_design',2009,#426);
#426=APPLICATION_CONTEXT(
'Core Data for Automotive Mechanical Design Process');
#427=PRODUCT_CONTEXT('part definition',#426,'mechanical');
#428=PRODUCT('Walsin RFANT5220110A2T','Walsin RFANT5220110A2T v0',$,(#427));
#429=PRESENTATION_STYLE_ASSIGNMENT((#432));
#430=PRESENTATION_STYLE_ASSIGNMENT((#433));
#431=PRESENTATION_STYLE_ASSIGNMENT((#434));
#432=SURFACE_STYLE_USAGE(.BOTH.,#435);
#433=SURFACE_STYLE_USAGE(.BOTH.,#436);
#434=SURFACE_STYLE_USAGE(.BOTH.,#437);
#435=SURFACE_SIDE_STYLE('',(#438));
#436=SURFACE_SIDE_STYLE('',(#439));
#437=SURFACE_SIDE_STYLE('',(#440));
#438=SURFACE_STYLE_FILL_AREA(#441);
#439=SURFACE_STYLE_FILL_AREA(#442);
#440=SURFACE_STYLE_FILL_AREA(#443);
#441=FILL_AREA_STYLE('Stahl - satiniert',(#444));
#442=FILL_AREA_STYLE('Farbe - Emaille gl\X\E4nzend (Grau)',(#445));
#443=FILL_AREA_STYLE('Farbe - Emaille gl\X\E4nzend (Blau)',(#446));
#444=FILL_AREA_STYLE_COLOUR('Stahl - satiniert',#447);
#445=FILL_AREA_STYLE_COLOUR('Farbe - Emaille gl\X\E4nzend (Grau)',#448);
#446=FILL_AREA_STYLE_COLOUR('Farbe - Emaille gl\X\E4nzend (Blau)',#449);
#447=COLOUR_RGB('Stahl - satiniert',0.627450980392157,0.627450980392157,
0.627450980392157);
#448=COLOUR_RGB('Farbe - Emaille gl\X\E4nzend (Grau)',0.701960784313725,
0.701960784313725,0.701960784313725);
#449=COLOUR_RGB('Farbe - Emaille gl\X\E4nzend (Blau)',0.294117647058824,
0.498039215686275,0.831372549019608);
ENDSEC;
END-ISO-10303-21;
